ISO-10303-21;
HEADER;
FILE_DESCRIPTION(('CATIA V5 STEP Exchange'),'2;1');

FILE_NAME('C:\\Users\\Astroboy\\Desktop\\RIDIX\\30_SCORRIMENTI_ISO\\30_ACCESSORI\\RDST300\\STEP\\RDST300.M8P.stp','2017-03-17T20:49:39+00:00',('none'),('none'),'CATIA Version 5 Release 19 GA (IN-10)','CATIA V5 STEP AP203','none');

FILE_SCHEMA(('CONFIG_CONTROL_DESIGN'));

ENDSEC;
/* file written by CATIA V5R19 */
DATA;
#5=PRODUCT('RDST300.M8P','','STAFFETTA DI RITEGNO\X2\000D\X0\\X2\000A\X0\SCORRIMENTI ISO',(#2)) ;
#1=APPLICATION_CONTEXT('configuration controlled 3D design of mechanical parts and assemblies') ;
#14=PRODUCT_DEFINITION('',' ',#6,#3) ;
#16=SECURITY_CLASSIFICATION(' ',' ',#15) ;
#15=SECURITY_CLASSIFICATION_LEVEL('unclassified') ;
#47=CARTESIAN_POINT(' ',(0.,0.,0.)) ;
#51=CARTESIAN_POINT('Line Origine',(0.,0.,0.)) ;
#55=CARTESIAN_POINT('Limit',(0.,0.,0.)) ;
#56=CARTESIAN_POINT('Limit',(20.,0.,0.)) ;
#63=CARTESIAN_POINT('Line Origine',(0.,0.,0.)) ;
#67=CARTESIAN_POINT('Limit',(0.,0.,0.)) ;
#68=CARTESIAN_POINT('Limit',(0.,20.,0.)) ;
#72=CARTESIAN_POINT('Line Origine',(0.,0.,0.)) ;
#76=CARTESIAN_POINT('Limit',(0.,0.,0.)) ;
#77=CARTESIAN_POINT('Limit',(0.,0.,20.)) ;
#81=CARTESIAN_POINT('Punto.4',(0.,0.,0.)) ;
#83=CARTESIAN_POINT('Axis2P3D Location',(-36.0986431439,0.,0.)) ;
#88=CARTESIAN_POINT('Line Origine',(-9.42,-8.5,-2.)) ;
#92=CARTESIAN_POINT('Vertex',(-9.42,-8.5,-4.)) ;
#94=CARTESIAN_POINT('Vertex',(-9.42,-8.5,0.)) ;
#97=CARTESIAN_POINT('Axis2P3D Location',(-36.0986431439,0.,0.)) ;
#101=CARTESIAN_POINT('Vertex',(-9.42,8.5,0.)) ;
#104=CARTESIAN_POINT('Line Origine',(-9.42,8.5,-2.)) ;
#108=CARTESIAN_POINT('Vertex',(-9.42,8.5,-3.99999999988)) ;
#111=CARTESIAN_POINT('Axis2P3D Location',(-36.0986431439,0.,-4.)) ;
#123=CARTESIAN_POINT('Axis2P3D Location',(10.6,0.,-10.)) ;
#128=CARTESIAN_POINT('Line Origine',(8.6,-8.50000000006,-10.)) ;
#132=CARTESIAN_POINT('Vertex',(10.6,-8.50000000012,-10.)) ;
#134=CARTESIAN_POINT('Vertex',(6.6,-8.50000000012,-10.)) ;
#137=CARTESIAN_POINT('Line Origine',(6.6,-5.82076609135E-011,-10.)) ;
#141=CARTESIAN_POINT('Vertex',(6.6,8.5,-10.)) ;
#144=CARTESIAN_POINT('Line Origine',(8.6,8.50000000006,-10.)) ;
#148=CARTESIAN_POINT('Vertex',(10.6,8.5,-10.)) ;
#151=CARTESIAN_POINT('Line Origine',(10.6,-5.82076609135E-011,-10.)) ;
#163=CARTESIAN_POINT('Axis2P3D Location',(10.6,0.,0.)) ;
#168=CARTESIAN_POINT('Line Origine',(10.6,-8.50000000007,-6.25)) ;
#172=CARTESIAN_POINT('Vertex',(10.6,-8.50000000003,-2.5)) ;
#175=CARTESIAN_POINT('Line Origine',(10.6,8.50000000004,-6.25)) ;
#179=CARTESIAN_POINT('Vertex',(10.6,8.50000000009,-2.5)) ;
#182=CARTESIAN_POINT('Line Origine',(10.6,2.91038304567E-011,-2.5)) ;
#194=CARTESIAN_POINT('Axis2P3D Location',(8.1,-5.82032200214E-011,-2.5)) ;
#199=CARTESIAN_POINT('Axis2P3D Location',(8.1,8.50000000009,-2.5)) ;
#203=CARTESIAN_POINT('Vertex',(8.1,8.5,0.)) ;
#206=CARTESIAN_POINT('Line Origine',(8.1,-7.28306304154E-012,0.)) ;
#210=CARTESIAN_POINT('Vertex',(8.1,-8.5000000001,0.)) ;
#213=CARTESIAN_POINT('Axis2P3D Location',(8.1,-8.50000000003,-2.5)) ;
#225=CARTESIAN_POINT('Axis2P3D Location',(15.4038105011,8.5,0.)) ;
#230=CARTESIAN_POINT('Axis2P3D Location',(6.1,8.5,-4.5)) ;
#234=CARTESIAN_POINT('Vertex',(6.6,8.50000000001,-4.5)) ;
#236=CARTESIAN_POINT('Vertex',(6.1,8.50000000011,-4.)) ;
#239=CARTESIAN_POINT('Line Origine',(-1.66,8.5,-3.99999999994)) ;
#244=CARTESIAN_POINT('Line Origine',(-0.66,8.5,0.)) ;
#249=CARTESIAN_POINT('Line Origine',(6.6,8.5,-7.25)) ;
#265=CARTESIAN_POINT('Axis2P3D Location',(15.4038105011,-8.5,0.)) ;
#270=CARTESIAN_POINT('Line Origine',(6.6,-8.5,-7.25)) ;
#274=CARTESIAN_POINT('Vertex',(6.6,-8.50000000011,-4.5)) ;
#277=CARTESIAN_POINT('Line Origine',(-0.66,-8.5,0.)) ;
#282=CARTESIAN_POINT('Line Origine',(-1.66,-8.5,-3.99999999994)) ;
#286=CARTESIAN_POINT('Vertex',(6.1,-8.5,-4.)) ;
#289=CARTESIAN_POINT('Axis2P3D Location',(6.1,-8.5,-4.5)) ;
#305=CARTESIAN_POINT('Axis2P3D Location',(6.6,0.,-10.)) ;
#310=CARTESIAN_POINT('Line Origine',(6.6,-4.85069762135E-011,-4.5)) ;
#322=CARTESIAN_POINT('Axis2P3D Location',(6.1,-8.881784197E-016,-4.5)) ;
#327=CARTESIAN_POINT('Line Origine',(6.1,3.03224112486E-012,-4.)) ;
#339=CARTESIAN_POINT('Axis2P3D Location',(6.6,0.,-4.)) ;
#350=CARTESIAN_POINT('Axis2P3D Location',(0.,4.4408920985E-016,-4.)) ;
#354=CARTESIAN_POINT('Vertex',(-4.1,5.02088605067E-016,-4.)) ;
#356=CARTESIAN_POINT('Vertex',(4.1,0.,-4.)) ;
#359=CARTESIAN_POINT('Axis2P3D Location',(8.881784197E-016,8.881784197E-016,-4.)) ;
#369=CARTESIAN_POINT('Axis2P3D Location',(-10.4,0.,0.)) ;
#380=CARTESIAN_POINT('Axis2P3D Location',(0.,0.,0.)) ;
#384=CARTESIAN_POINT('Vertex',(4.1,0.,0.)) ;
#386=CARTESIAN_POINT('Vertex',(-4.1,5.02088605067E-016,0.)) ;
#389=CARTESIAN_POINT('Axis2P3D Location',(0.,0.,0.)) ;
#399=CARTESIAN_POINT('Axis2P3D Location',(0.,0.,-10.)) ;
#404=CARTESIAN_POINT('Line Origine',(-4.1,5.02088605067E-016,-2.)) ;
#409=CARTESIAN_POINT('Line Origine',(4.1,-1.00417721013E-015,-2.)) ;
#52=DIRECTION('Vector Direction',(1.,0.,0.)) ;
#64=DIRECTION('Vector Direction',(0.,1.,0.)) ;
#73=DIRECTION('Vector Direction',(0.,0.,1.)) ;
#84=DIRECTION('Axis2P3D Direction',(0.,0.,1.)) ;
#85=DIRECTION('Axis2P3D XDirection',(0.952808683711,-0.303571428571,0.)) ;
#89=DIRECTION('Vector Direction',(0.,0.,1.)) ;
#98=DIRECTION('Axis2P3D Direction',(0.,0.,1.)) ;
#105=DIRECTION('Vector Direction',(0.,0.,1.)) ;
#112=DIRECTION('Axis2P3D Direction',(0.,0.,1.)) ;
#124=DIRECTION('Axis2P3D Direction',(0.,0.,-1.)) ;
#125=DIRECTION('Axis2P3D XDirection',(-1.,0.,0.)) ;
#129=DIRECTION('Vector Direction',(-1.,-2.91038304567E-011,0.)) ;
#138=DIRECTION('Vector Direction',(0.,1.,0.)) ;
#145=DIRECTION('Vector Direction',(-1.,-2.91038304567E-011,0.)) ;
#152=DIRECTION('Vector Direction',(0.,1.,0.)) ;
#164=DIRECTION('Axis2P3D Direction',(1.,0.,-1.7763568394E-016)) ;
#165=DIRECTION('Axis2P3D XDirection',(-1.7763568394E-016,0.,-1.)) ;
#169=DIRECTION('Vector Direction',(-2.36847578587E-016,-1.16415321827E-011,-1.)) ;
#176=DIRECTION('Vector Direction',(-2.36847578587E-016,-1.16415321827E-011,-1.)) ;
#183=DIRECTION('Vector Direction',(0.,1.,0.)) ;
#195=DIRECTION('Axis2P3D Direction',(0.,1.,0.)) ;
#196=DIRECTION('Axis2P3D XDirection',(-6.06133593208E-018,-0.,1.)) ;
#200=DIRECTION('Axis2P3D Direction',(0.,1.,0.)) ;
#207=DIRECTION('Vector Direction',(0.,1.,0.)) ;
#214=DIRECTION('Axis2P3D Direction',(0.,1.,0.)) ;
#226=DIRECTION('Axis2P3D Direction',(0.,1.,-0.)) ;
#227=DIRECTION('Axis2P3D XDirection',(-1.,0.,0.)) ;
#231=DIRECTION('Axis2P3D Direction',(0.,1.,-0.)) ;
#240=DIRECTION('Vector Direction',(-1.,0.,7.2668675201E-012)) ;
#245=DIRECTION('Vector Direction',(-1.,0.,0.)) ;
#250=DIRECTION('Vector Direction',(0.,0.,1.)) ;
#266=DIRECTION('Axis2P3D Direction',(0.,1.,-0.)) ;
#267=DIRECTION('Axis2P3D XDirection',(-1.,0.,0.)) ;
#271=DIRECTION('Vector Direction',(0.,0.,1.)) ;
#278=DIRECTION('Vector Direction',(-1.,0.,0.)) ;
#283=DIRECTION('Vector Direction',(-1.,0.,7.2668675201E-012)) ;
#290=DIRECTION('Axis2P3D Direction',(0.,1.,-0.)) ;
#306=DIRECTION('Axis2P3D Direction',(-1.,0.,0.)) ;
#307=DIRECTION('Axis2P3D XDirection',(0.,0.,1.)) ;
#311=DIRECTION('Vector Direction',(0.,1.,0.)) ;
#323=DIRECTION('Axis2P3D Direction',(0.,1.,0.)) ;
#324=DIRECTION('Axis2P3D XDirection',(0.,0.,1.)) ;
#328=DIRECTION('Vector Direction',(0.,1.,0.)) ;
#340=DIRECTION('Axis2P3D Direction',(0.,0.,-1.)) ;
#341=DIRECTION('Axis2P3D XDirection',(-1.,0.,0.)) ;
#351=DIRECTION('Axis2P3D Direction',(0.,0.,-1.)) ;
#360=DIRECTION('Axis2P3D Direction',(0.,0.,-1.)) ;
#370=DIRECTION('Axis2P3D Direction',(0.,0.,1.)) ;
#371=DIRECTION('Axis2P3D XDirection',(1.,0.,0.)) ;
#381=DIRECTION('Axis2P3D Direction',(0.,0.,1.)) ;
#390=DIRECTION('Axis2P3D Direction',(0.,0.,1.)) ;
#400=DIRECTION('Axis2P3D Direction',(0.,0.,1.)) ;
#401=DIRECTION('Axis2P3D XDirection',(1.,0.,0.)) ;
#405=DIRECTION('Vector Direction',(0.,0.,1.)) ;
#410=DIRECTION('Vector Direction',(0.,0.,1.)) ;
#48=AXIS2_PLACEMENT_3D(' ',#47,$,$) ;
#86=AXIS2_PLACEMENT_3D('Cylinder Axis2P3D',#83,#84,#85) ;
#99=AXIS2_PLACEMENT_3D('Circle Axis2P3D',#97,#98,$) ;
#113=AXIS2_PLACEMENT_3D('Circle Axis2P3D',#111,#112,$) ;
#126=AXIS2_PLACEMENT_3D('Plane Axis2P3D',#123,#124,#125) ;
#166=AXIS2_PLACEMENT_3D('Plane Axis2P3D',#163,#164,#165) ;
#197=AXIS2_PLACEMENT_3D('Cylinder Axis2P3D',#194,#195,#196) ;
#201=AXIS2_PLACEMENT_3D('Circle Axis2P3D',#199,#200,$) ;
#215=AXIS2_PLACEMENT_3D('Circle Axis2P3D',#213,#214,$) ;
#228=AXIS2_PLACEMENT_3D('Plane Axis2P3D',#225,#226,#227) ;
#232=AXIS2_PLACEMENT_3D('Circle Axis2P3D',#230,#231,$) ;
#268=AXIS2_PLACEMENT_3D('Plane Axis2P3D',#265,#266,#267) ;
#291=AXIS2_PLACEMENT_3D('Circle Axis2P3D',#289,#290,$) ;
#308=AXIS2_PLACEMENT_3D('Plane Axis2P3D',#305,#306,#307) ;
#325=AXIS2_PLACEMENT_3D('Cylinder Axis2P3D',#322,#323,#324) ;
#342=AXIS2_PLACEMENT_3D('Plane Axis2P3D',#339,#340,#341) ;
#352=AXIS2_PLACEMENT_3D('Circle Axis2P3D',#350,#351,$) ;
#361=AXIS2_PLACEMENT_3D('Circle Axis2P3D',#359,#360,$) ;
#372=AXIS2_PLACEMENT_3D('Plane Axis2P3D',#369,#370,#371) ;
#382=AXIS2_PLACEMENT_3D('Circle Axis2P3D',#380,#381,$) ;
#391=AXIS2_PLACEMENT_3D('Circle Axis2P3D',#389,#390,$) ;
#402=AXIS2_PLACEMENT_3D('Cylinder Axis2P3D',#399,#400,#401) ;
#40=PRODUCT_DEFINITION_SHAPE(' ',' ',#14) ;
#59=COMPOSITE_CURVE('Linea.1',(#58),.U.) ;
#71=COMPOSITE_CURVE('Linea.2',(#70),.U.) ;
#80=COMPOSITE_CURVE('Linea.3',(#79),.U.) ;
#58=COMPOSITE_CURVE_SEGMENT(.DISCONTINUOUS.,.T.,#57) ;
#70=COMPOSITE_CURVE_SEGMENT(.DISCONTINUOUS.,.T.,#69) ;
#79=COMPOSITE_CURVE_SEGMENT(.DISCONTINUOUS.,.T.,#78) ;
#31=APPROVAL_PERSON_ORGANIZATION(#25,#21,#19) ;
#25=PERSON_AND_ORGANIZATION(#22,#23) ;
#22=PERSON(' ',' ',' ',$,$,$) ;
#23=ORGANIZATION(' ',' ',' ') ;
#21=APPROVAL(#20,' ') ;
#20=APPROVAL_STATUS('not_yet_approved') ;
#19=APPROVAL_ROLE('APPROVER') ;
#13=DATE_AND_TIME(#11,#12) ;
#12=LOCAL_TIME(21,49,39.,#10) ;
#10=COORDINATED_UNIVERSAL_TIME_OFFSET(0,0,.AHEAD.) ;
#117=ORIENTED_EDGE('',*,*,#96,.T.) ;
#118=ORIENTED_EDGE('',*,*,#103,.T.) ;
#119=ORIENTED_EDGE('',*,*,#110,.F.) ;
#120=ORIENTED_EDGE('',*,*,#115,.T.) ;
#157=ORIENTED_EDGE('',*,*,#136,.T.) ;
#158=ORIENTED_EDGE('',*,*,#143,.T.) ;
#159=ORIENTED_EDGE('',*,*,#150,.F.) ;
#160=ORIENTED_EDGE('',*,*,#155,.F.) ;
#188=ORIENTED_EDGE('',*,*,#174,.T.) ;
#189=ORIENTED_EDGE('',*,*,#155,.T.) ;
#190=ORIENTED_EDGE('',*,*,#181,.F.) ;
#191=ORIENTED_EDGE('',*,*,#186,.F.) ;
#219=ORIENTED_EDGE('',*,*,#205,.T.) ;
#220=ORIENTED_EDGE('',*,*,#212,.F.) ;
#221=ORIENTED_EDGE('',*,*,#217,.T.) ;
#222=ORIENTED_EDGE('',*,*,#186,.T.) ;
#255=ORIENTED_EDGE('',*,*,#238,.T.) ;
#256=ORIENTED_EDGE('',*,*,#243,.T.) ;
#257=ORIENTED_EDGE('',*,*,#110,.T.) ;
#258=ORIENTED_EDGE('',*,*,#248,.F.) ;
#259=ORIENTED_EDGE('',*,*,#205,.F.) ;
#260=ORIENTED_EDGE('',*,*,#181,.T.) ;
#261=ORIENTED_EDGE('',*,*,#150,.T.) ;
#262=ORIENTED_EDGE('',*,*,#253,.T.) ;
#295=ORIENTED_EDGE('',*,*,#276,.F.) ;
#296=ORIENTED_EDGE('',*,*,#136,.F.) ;
#297=ORIENTED_EDGE('',*,*,#174,.F.) ;
#298=ORIENTED_EDGE('',*,*,#217,.F.) ;
#299=ORIENTED_EDGE('',*,*,#281,.T.) ;
#300=ORIENTED_EDGE('',*,*,#96,.F.) ;
#301=ORIENTED_EDGE('',*,*,#288,.F.) ;
#302=ORIENTED_EDGE('',*,*,#293,.T.) ;
#316=ORIENTED_EDGE('',*,*,#253,.F.) ;
#317=ORIENTED_EDGE('',*,*,#143,.F.) ;
#318=ORIENTED_EDGE('',*,*,#276,.T.) ;
#319=ORIENTED_EDGE('',*,*,#314,.F.) ;
#333=ORIENTED_EDGE('',*,*,#331,.F.) ;
#334=ORIENTED_EDGE('',*,*,#238,.F.) ;
#335=ORIENTED_EDGE('',*,*,#314,.T.) ;
#336=ORIENTED_EDGE('',*,*,#293,.F.) ;
#345=ORIENTED_EDGE('',*,*,#288,.T.) ;
#346=ORIENTED_EDGE('',*,*,#115,.F.) ;
#347=ORIENTED_EDGE('',*,*,#243,.F.) ;
#348=ORIENTED_EDGE('',*,*,#331,.T.) ;
#365=ORIENTED_EDGE('',*,*,#358,.F.) ;
#366=ORIENTED_EDGE('',*,*,#363,.F.) ;
#375=ORIENTED_EDGE('',*,*,#248,.T.) ;
#376=ORIENTED_EDGE('',*,*,#103,.F.) ;
#377=ORIENTED_EDGE('',*,*,#281,.F.) ;
#378=ORIENTED_EDGE('',*,*,#212,.T.) ;
#395=ORIENTED_EDGE('',*,*,#388,.F.) ;
#396=ORIENTED_EDGE('',*,*,#393,.F.) ;
#415=ORIENTED_EDGE('',*,*,#363,.T.) ;
#416=ORIENTED_EDGE('',*,*,#408,.F.) ;
#417=ORIENTED_EDGE('',*,*,#393,.T.) ;
#418=ORIENTED_EDGE('',*,*,#413,.T.) ;
#422=ORIENTED_EDGE('',*,*,#358,.T.) ;
#423=ORIENTED_EDGE('',*,*,#413,.F.) ;
#424=ORIENTED_EDGE('',*,*,#388,.T.) ;
#425=ORIENTED_EDGE('',*,*,#408,.T.) ;
#367=FACE_BOUND('',#364,.T.) ;
#397=FACE_BOUND('',#394,.T.) ;
#82=CLOSED_SHELL('Closed Shell',(#122,#162,#193,#224,#264,#304,#321,#338,#368,#398,#420,#427)) ;
#53=VECTOR('Line Direction',#52,1.) ;
#65=VECTOR('Line Direction',#64,1.) ;
#74=VECTOR('Line Direction',#73,1.) ;
#90=VECTOR('Line Direction',#89,1.) ;
#106=VECTOR('Line Direction',#105,1.) ;
#130=VECTOR('Line Direction',#129,1.) ;
#139=VECTOR('Line Direction',#138,1.) ;
#146=VECTOR('Line Direction',#145,1.) ;
#153=VECTOR('Line Direction',#152,1.) ;
#170=VECTOR('Line Direction',#169,1.) ;
#177=VECTOR('Line Direction',#176,1.) ;
#184=VECTOR('Line Direction',#183,1.) ;
#208=VECTOR('Line Direction',#207,1.) ;
#241=VECTOR('Line Direction',#240,1.) ;
#246=VECTOR('Line Direction',#245,1.) ;
#251=VECTOR('Line Direction',#250,1.) ;
#272=VECTOR('Line Direction',#271,1.) ;
#279=VECTOR('Line Direction',#278,1.) ;
#284=VECTOR('Line Direction',#283,1.) ;
#312=VECTOR('Line Direction',#311,1.) ;
#329=VECTOR('Line Direction',#328,1.) ;
#406=VECTOR('Line Direction',#405,1.) ;
#411=VECTOR('Line Direction',#410,1.) ;
#429=ADVANCED_BREP_SHAPE_REPRESENTATION('NONE',(#428),#46) ;
#49=SHAPE_REPRESENTATION(' ',(#48),#46) ;
#122=ADVANCED_FACE('PartBody',(#121),#87,.F.) ;
#162=ADVANCED_FACE('PartBody',(#161),#127,.T.) ;
#193=ADVANCED_FACE('PartBody',(#192),#167,.T.) ;
#224=ADVANCED_FACE('PartBody',(#223),#198,.T.) ;
#264=ADVANCED_FACE('PartBody',(#263),#229,.T.) ;
#304=ADVANCED_FACE('PartBody',(#303),#269,.F.) ;
#321=ADVANCED_FACE('PartBody',(#320),#309,.T.) ;
#338=ADVANCED_FACE('PartBody',(#337),#326,.F.) ;
#368=ADVANCED_FACE('PartBody',(#349,#367),#343,.T.) ;
#398=ADVANCED_FACE('PartBody',(#379,#397),#373,.T.) ;
#420=ADVANCED_FACE('PartBody',(#419),#403,.F.) ;
#427=ADVANCED_FACE('PartBody',(#426),#403,.F.) ;
#4=APPLICATION_PROTOCOL_DEFINITION('international standard','config_control_design',1994,#1) ;
#32=APPROVAL_DATE_TIME(#13,#21) ;
#428=MANIFOLD_SOLID_BREP('PartBody',#82) ;
#11=CALENDAR_DATE(2017,17,3) ;
#30=CC_DESIGN_APPROVAL(#21,(#16,#6,#14)) ;
#18=CC_DESIGN_DATE_AND_TIME_ASSIGNMENT(#13,#17,(#16)) ;
#29=CC_DESIGN_DATE_AND_TIME_ASSIGNMENT(#13,#28,(#14)) ;
#17=DATE_TIME_ROLE('classification_date') ;
#28=DATE_TIME_ROLE('creation_date') ;
#27=CC_DESIGN_PERSON_AND_ORGANIZATION_ASSIGNMENT(#25,#26,(#16)) ;
#33=CC_DESIGN_PERSON_AND_ORGANIZATION_ASSIGNMENT(#25,#34,(#6)) ;
#35=CC_DESIGN_PERSON_AND_ORGANIZATION_ASSIGNMENT(#25,#36,(#6,#14)) ;
#37=CC_DESIGN_PERSON_AND_ORGANIZATION_ASSIGNMENT(#25,#38,(#5)) ;
#26=PERSON_AND_ORGANIZATION_ROLE('classification_officer') ;
#34=PERSON_AND_ORGANIZATION_ROLE('design_supplier') ;
#36=PERSON_AND_ORGANIZATION_ROLE('creator') ;
#38=PERSON_AND_ORGANIZATION_ROLE('design_owner') ;
#39=CC_DESIGN_SECURITY_CLASSIFICATION(#16,(#6)) ;
#100=CIRCLE('generated circle',#99,28.) ;
#114=CIRCLE('generated circle',#113,28.) ;
#202=CIRCLE('generated circle',#201,2.5) ;
#216=CIRCLE('generated circle',#215,2.5) ;
#233=CIRCLE('generated circle',#232,0.5) ;
#292=CIRCLE('generated circle',#291,0.5) ;
#353=CIRCLE('generated circle',#352,4.1) ;
#362=CIRCLE('generated circle',#361,4.1) ;
#383=CIRCLE('generated circle',#382,4.1) ;
#392=CIRCLE('generated circle',#391,4.1) ;
#62=SHAPE_REPRESENTATION_RELATIONSHIP(' ',' ',#49,#60) ;
#430=SHAPE_REPRESENTATION_RELATIONSHIP(' ',' ',#49,#429) ;
#87=CYLINDRICAL_SURFACE('generated cylinder',#86,28.) ;
#198=CYLINDRICAL_SURFACE('generated cylinder',#197,2.5) ;
#326=CYLINDRICAL_SURFACE('generated cylinder',#325,0.5) ;
#403=CYLINDRICAL_SURFACE('generated cylinder',#402,4.1) ;
#3=DESIGN_CONTEXT(' ',#1,'design') ;
#96=EDGE_CURVE('',#93,#95,#91,.T.) ;
#103=EDGE_CURVE('',#95,#102,#100,.T.) ;
#110=EDGE_CURVE('',#109,#102,#107,.T.) ;
#115=EDGE_CURVE('',#109,#93,#114,.F.) ;
#136=EDGE_CURVE('',#133,#135,#131,.T.) ;
#143=EDGE_CURVE('',#135,#142,#140,.T.) ;
#150=EDGE_CURVE('',#149,#142,#147,.T.) ;
#155=EDGE_CURVE('',#133,#149,#154,.T.) ;
#174=EDGE_CURVE('',#173,#133,#171,.T.) ;
#181=EDGE_CURVE('',#180,#149,#178,.T.) ;
#186=EDGE_CURVE('',#173,#180,#185,.T.) ;
#205=EDGE_CURVE('',#180,#204,#202,.F.) ;
#212=EDGE_CURVE('',#211,#204,#209,.T.) ;
#217=EDGE_CURVE('',#211,#173,#216,.T.) ;
#238=EDGE_CURVE('',#235,#237,#233,.F.) ;
#243=EDGE_CURVE('',#237,#109,#242,.T.) ;
#248=EDGE_CURVE('',#204,#102,#247,.T.) ;
#253=EDGE_CURVE('',#142,#235,#252,.T.) ;
#276=EDGE_CURVE('',#135,#275,#273,.T.) ;
#281=EDGE_CURVE('',#211,#95,#280,.T.) ;
#288=EDGE_CURVE('',#287,#93,#285,.T.) ;
#293=EDGE_CURVE('',#287,#275,#292,.T.) ;
#314=EDGE_CURVE('',#235,#275,#313,.F.) ;
#331=EDGE_CURVE('',#237,#287,#330,.F.) ;
#358=EDGE_CURVE('',#355,#357,#353,.T.) ;
#363=EDGE_CURVE('',#357,#355,#362,.T.) ;
#388=EDGE_CURVE('',#385,#387,#383,.T.) ;
#393=EDGE_CURVE('',#387,#385,#392,.T.) ;
#408=EDGE_CURVE('',#387,#355,#407,.F.) ;
#413=EDGE_CURVE('',#385,#357,#412,.F.) ;
#116=EDGE_LOOP('',(#117,#118,#119,#120)) ;
#156=EDGE_LOOP('',(#157,#158,#159,#160)) ;
#187=EDGE_LOOP('',(#188,#189,#190,#191)) ;
#218=EDGE_LOOP('',(#219,#220,#221,#222)) ;
#254=EDGE_LOOP('',(#255,#256,#257,#258,#259,#260,#261,#262)) ;
#294=EDGE_LOOP('',(#295,#296,#297,#298,#299,#300,#301,#302)) ;
#315=EDGE_LOOP('',(#316,#317,#318,#319)) ;
#332=EDGE_LOOP('',(#333,#334,#335,#336)) ;
#344=EDGE_LOOP('',(#345,#346,#347,#348)) ;
#364=EDGE_LOOP('',(#365,#366)) ;
#374=EDGE_LOOP('',(#375,#376,#377,#378)) ;
#394=EDGE_LOOP('',(#395,#396)) ;
#414=EDGE_LOOP('',(#415,#416,#417,#418)) ;
#421=EDGE_LOOP('',(#422,#423,#424,#425)) ;
#121=FACE_OUTER_BOUND('',#116,.T.) ;
#161=FACE_OUTER_BOUND('',#156,.T.) ;
#192=FACE_OUTER_BOUND('',#187,.T.) ;
#223=FACE_OUTER_BOUND('',#218,.T.) ;
#263=FACE_OUTER_BOUND('',#254,.T.) ;
#303=FACE_OUTER_BOUND('',#294,.T.) ;
#320=FACE_OUTER_BOUND('',#315,.T.) ;
#337=FACE_OUTER_BOUND('',#332,.T.) ;
#349=FACE_OUTER_BOUND('',#344,.T.) ;
#379=FACE_OUTER_BOUND('',#374,.T.) ;
#419=FACE_OUTER_BOUND('',#414,.T.) ;
#426=FACE_OUTER_BOUND('',#421,.T.) ;
#61=GEOMETRIC_SET('NONE',(#59,#71,#80,#81)) ;
#60=GEOMETRICALLY_BOUNDED_SURFACE_SHAPE_REPRESENTATION('NONE',(#61),#46) ;
#45=UNCERTAINTY_MEASURE_WITH_UNIT(LENGTH_MEASURE(0.005),#41,'distance_accuracy_value','CONFUSED CURVE UNCERTAINTY') ;
#54=LINE('Line',#51,#53) ;
#66=LINE('Line',#63,#65) ;
#75=LINE('Line',#72,#74) ;
#91=LINE('Line',#88,#90) ;
#107=LINE('Line',#104,#106) ;
#131=LINE('Line',#128,#130) ;
#140=LINE('Line',#137,#139) ;
#147=LINE('Line',#144,#146) ;
#154=LINE('Line',#151,#153) ;
#171=LINE('Line',#168,#170) ;
#178=LINE('Line',#175,#177) ;
#185=LINE('Line',#182,#184) ;
#209=LINE('Line',#206,#208) ;
#242=LINE('Line',#239,#241) ;
#247=LINE('Line',#244,#246) ;
#252=LINE('Line',#249,#251) ;
#273=LINE('Line',#270,#272) ;
#280=LINE('Line',#277,#279) ;
#285=LINE('Line',#282,#284) ;
#313=LINE('Line',#310,#312) ;
#330=LINE('Line',#327,#329) ;
#407=LINE('Line',#404,#406) ;
#412=LINE('Line',#409,#411) ;
#2=MECHANICAL_CONTEXT(' ',#1,'mechanical') ;
#24=PERSONAL_ADDRESS(' ',' ',' ',' ',' ',' ',' ',' ',' ',' ',' ',' ',(#22),' ') ;
#127=PLANE('Plane',#126) ;
#167=PLANE('Plane',#166) ;
#229=PLANE('Plane',#228) ;
#269=PLANE('Plane',#268) ;
#309=PLANE('Plane',#308) ;
#343=PLANE('Plane',#342) ;
#373=PLANE('Plane',#372) ;
#43=PLANE_ANGLE_MEASURE_WITH_UNIT(PLANE_ANGLE_MEASURE(0.0174532925199),#42) ;
#7=PRODUCT_CATEGORY('part',$) ;
#9=PRODUCT_CATEGORY_RELATIONSHIP(' ',' ',#7,#8) ;
#6=PRODUCT_DEFINITION_FORMATION_WITH_SPECIFIED_SOURCE('',' ',#5,.NOT_KNOWN.) ;
#8=PRODUCT_RELATED_PRODUCT_CATEGORY('detail',$,(#5)) ;
#50=SHAPE_DEFINITION_REPRESENTATION(#40,#49) ;
#57=TRIMMED_CURVE('',#54,(#55),(#56),.T.,.CARTESIAN.) ;
#69=TRIMMED_CURVE('',#66,(#67),(#68),.T.,.CARTESIAN.) ;
#78=TRIMMED_CURVE('',#75,(#76),(#77),.T.,.CARTESIAN.) ;
#93=VERTEX_POINT('',#92) ;
#95=VERTEX_POINT('',#94) ;
#102=VERTEX_POINT('',#101) ;
#109=VERTEX_POINT('',#108) ;
#133=VERTEX_POINT('',#132) ;
#135=VERTEX_POINT('',#134) ;
#142=VERTEX_POINT('',#141) ;
#149=VERTEX_POINT('',#148) ;
#173=VERTEX_POINT('',#172) ;
#180=VERTEX_POINT('',#179) ;
#204=VERTEX_POINT('',#203) ;
#211=VERTEX_POINT('',#210) ;
#235=VERTEX_POINT('',#234) ;
#237=VERTEX_POINT('',#236) ;
#275=VERTEX_POINT('',#274) ;
#287=VERTEX_POINT('',#286) ;
#355=VERTEX_POINT('',#354) ;
#357=VERTEX_POINT('',#356) ;
#385=VERTEX_POINT('',#384) ;
#387=VERTEX_POINT('',#386) ;
#41=(LENGTH_UNIT()NAMED_UNIT(*)SI_UNIT(.MILLI.,.METRE.)) ;
#42=(NAMED_UNIT(*)PLANE_ANGLE_UNIT()SI_UNIT($,.RADIAN.)) ;
#44=(NAMED_UNIT(*)SI_UNIT($,.STERADIAN.)SOLID_ANGLE_UNIT()) ;
#46=(GEOMETRIC_REPRESENTATION_CONTEXT(3)GLOBAL_UNCERTAINTY_ASSIGNED_CONTEXT((#45))GLOBAL_UNIT_ASSIGNED_CONTEXT((#41,#42,#44))REPRESENTATION_CONTEXT(' ',' ')) ;
ENDSEC;
END-ISO-10303-21;
